Curso de Violão Completo Aprenda Violão sem sair de casa, no horário que desejar.

Ebook Grátis Violão Para você dar os seus primeiros passos no violão.

Mala pronto - Hugo Pena e Gabriel (aula de violão completa)

Tom: C
        

   C                  Am                 F                       G
E |------------------|------------------|------------------------|----------------------------
B |------------------|------------------|------------------------|----------------------------
G |--------5-5---5-4-|------------------|------------------------|-5-5-4-4h5-5-5----5-4-2-2h4-
D |--5-5-5-----------|7-------7-7---7-5-|---7-5-7-5-7----5-7-5-7-|----------------------------
A |------------------|-7-7-7-----------8|------------------------|----------------------------
E |------------------|------------------|------------------------|----------------------------


(intro) ( C   Am   F   G )

 (C para Am)                   (Am para F)
  (riff 1)                       (riff 2)

E |----------                  e|----------
B |----------                  B|----------
G |----------                  G|----------
D |----------                  D|---2-3----
A |---3-2----                  A|----------
E |----------                  E|----------


C                    Am
Você passou da conta

e me tirou do sério
 F                                  G
Você fez tudo errado e acabou o mistério
C                     Am
Hoje eu tirei a prova

Hoje eu sai pra rua
 F                               G
Hoje eu dividi a minha vida e a sua

Em                Am
Não dá mais, não valeu
       F               G
Dessa vez, você me perdeu

(refrão)
      C                   Am
      Deixe a mala pronta, arrume as suas roupas
      F                              G
      Pode ir embora que eu arranjo outra
      C                   Am
      Eu to falando sério, pode acreditar
      F                                                  G
      Sabendo que eu tenho razão porque é que eu vou chorar
                     C
      Deixe a mala pronta

(solo)  (C,Am,F,G)

Em                Am
Não dá mais, não valeu
       F               G
Dessa vez, você me perdeu

(refrão)
      C                   Am
      Deixe a mala pronta, arrume as suas roupas
      F                              G
      Pode ir embora que eu arranjo outra
      C                   Am
      Eu to falando sério, pode acreditar
      F                                                  G
      Sabendo que eu tenho razão porque é que eu vou chorar
                     C
      Deixe a mala pronta

Receba nossos artigos

*

6 aulas de exercícios de violão

13 aulas de violão iniciante

7 aulas de Violão com Beatles

11 aulas de acordes de violão

7 aulas para evoluir no violão

Sobre nós:

A Primeiros Acordes tem como objetivo ensinar você a aprender a tocar no conforto de sua casa, com aulas, cursos, vídeo-aulas, métodos voltados para o aprendizado online.

Contato

Primeiros Acordes

Email: marcos.dupra@globo.com

Horário: 9:00 ás 18:00 hs

Não temos loja física