Curso de Violão Completo Aprenda Violão sem sair de casa, no horário que desejar.

Ebook Grátis Violão Para você dar os seus primeiros passos no violão.

Luiz Gonzaga – Asa Branca (aula de violão completa)

Asa Branca

Luíz Gonzaga

 Luíz Gonzaga
Tom: G
(intro)

(parte 1)

G
E|---1---0----------------------------------|
B|-0---3---1-3-0-1---0-----------0----------|
G|-0---------------2---0-2-0---0-0----------|
D|-0-------------------------2---0----------|
A|------------------------------------------|
E|-3-----------------------------3----------|


(parte 2)

E|-1---0------------------------------------|
B|---3---1-3-0-1---0------------------------|
G|---------------2---0-2-0---0--------------|
D|-------------------------2----------------|
A|------------------------------------------|
E|-3---3---3---3---3---3---3----------------|


(parte 3)


G G/F G G/F G G/F
E|------------------------------------------|
B|-0---0----0--0---0----0--0---0----0-------|
G|-0---0----0--0---0----0--0---0----0-------|
D|-0---0----0--0---0----0--0---0----0-------|
A|------------------------------------------|
E|-3-----1-----3-----1-----3-----1----------|



E|------------------------------------------|
B|---0-0----0-------------------------------|
G|---0-0----0-------------------------------|
D|---0-0----0-------------------------------|
A|------------------------------------------|
E|-1-----1----------------------------------|


G C
Quando olhei a terra ardendo
G D7/F# G
Qual fogueira de São João
G7 C
(Eu perguntei a Deus do céu, ai
D7 G
Por quê tamanha judiação) (2x)

C
Que braseiro, que fornaia
G D7/F# G
Nem um pé de plan-ta-ção
G7 C
(Por farta d'água perdi meu gado
D7 G
Morreu de sede, meu alazão) (2x)

C
Inté mesmo a asa branca
G D7/F# G
Bateu asas do sertão
G7 C
(entonce eu disse, adeus Rosinha
D7 G
Guarda contigo meu coração) (2x)

C
Hoje longe muitas léguas
G D7/F# G
Nessa triste so-li-dão
G7 C
(Espero a chuva cair de novo
D7 G
Pra mim voltá pro meu sertão) (2x)

C
Quando o verde dos teus olhos
G D7/F# G
Se espalhar na plan-ta-ção
G7 C
(Eu te asseguro, nao chores não, viu?
D7 G
Que eu vortarei, viu, meu coração)2X

(intro tocando a parte 3 - 2x)
(terminando com a cadência) F/A G

(solo - em intervalos de 6ª)

(parte 1)

G C G
E|-3-5-5/7-10-10-7-8--3-5-7/10-10-8-7-------|
B|------------------------------------------|
G|-4-5-5/7-10-10-7-9--4-5-7/10-10-9-7-------|
D|------------------------------------------|
A|------------------------------------------|
E|------------------------------------------|


(parte 2)

G7 C D7
E|-3-3-5-7/10--10-8-7-3/8--8-7-5-5/7--------|
B|------------------------------------------|
G|-4-4-5-7/10--10-9-7-4/9--9-7-5-5/7--------|
D|------------------------------------------|
A|------------------------------------------|
E|------------------------------------------|


G
E|-7\5-3-3----------------------------------|
B|------------------------------------------|
G|-7\5-4-4----------------------------------|
D|------------------------------------------|
A|------------------------------------------|
E|------------------------------------------|

Receba nossos artigos

*

6 aulas de exercícios de violão

13 aulas de violão iniciante

7 aulas de Violão com Beatles

11 aulas de acordes de violão

7 aulas para evoluir no violão

Sobre nós:

A Primeiros Acordes tem como objetivo ensinar você a aprender a tocar no conforto de sua casa, com aulas, cursos, vídeo-aulas, métodos voltados para o aprendizado online.

Contato

Primeiros Acordes

Email: marcos.dupra@globo.com

Horário: 9:00 ás 18:00 hs

Não temos loja física