Curso de Violão Completo Aprenda Violão sem sair de casa, no horário que desejar.

Ebook Grátis Violão Para você dar os seus primeiros passos no violão.

In My Life - The Beatles

Tom: D
        
Intro 2x: G  D

 G            D
E|----5----------4------------------|
B|--2----2h3--5--5----5-----5-------|
G|--2------------4----4-----4-------|   (2x)
D|--2------------2--2---2-2---2-----|
A|----------------------------------|
E|--5----5--------------------------|


            G    D5/F#   Em    
There are places I'll remember
        C    Cm        G
all my li--ife though some have changed
              D5/F#  Em   
Some forever not for better,
           C  Cm       G
some have go--one and some remain
          Em                C
All these places had their moments,
      F                     G
with lovers and friends I still can recall
         Em                 A7
Some are dead and some are living,
    C  Cm             G
In my    life I've loved them all

  G          D5/F#   Em
E|-----------------------------------------|
B|------5--------5------2--x--2---2--------|
G|------2--------4------2--x--2---2--------|
D|----2---2----2---2----4--x--2-2---2------|
A|-----------------------------------------|
E|--5--------4--------2-------3------------|
    C        Cm       G
E|-----------------------------------------|
B|------3---------6----------5-------------|
G|------2---------7--------2---2-----------|
D|----4---4----5----5----2-----------------|
A|--5--------5-----------------------------|
E|---------------------5-------------------|
  G          D5/F#   Em
E|-----------------------------------------|
B|------5--------5------2--x--2---2--------|
G|------2--------4------2--x--2---2--------|
D|----2---2----2---2----4--x--2-2---2------|
A|-----------------------------------------|
E|--5--------4--------2-------3------------|
   C        Cm       G
E|--------------------------------5--5--5--|
B|------3---------6-----------5---5--5--5--|
G|------2---------7--------2--2---2--2--2--|
D|----4---4----5----5----2----2---2--2--2--|
A|--5--------5----------------4---4--4--4--|
E|---------------------5------5---5--5--5--|
                            ?   ?  ?  ?


Intro 2x: G  D

 G            D
E|----5----------4------------------|
B|--2----2h3--5--5----5-----5-------|
G|--2------------4----4-----4-------|   (2x)
D|--2------------2--2---2-2---2-----|
A|----------------------------------|
E|--5----5--------------------------|


       G           D5/F#        Em    
But of all these friends and lovers,
          C Cm      G
There is no one compares with you
                    D5/F#         Em   
And these memories lose their meaning,
         C       Cm      G
When I think of love as something new
           Em                    C
Though I know I'll never lose affection
     F                      G
For people and things that went before
    Em                              A7
I know I'll often stop and think about them
    C  Cm          G
In my   life I'll love you more
Intro: G  D

 G            D
E|----5----------4------------------|
B|--2----2h3--5--5----5-----5-------|
G|--2------------4----4-----4-------|
D|--2------------2--2---2-2---2-----|
A|----------------------------------|
E|--5----5--------------------------|



    C  Cm          G
In my   life I'll love you more

    G            D7         G
E|----5----------4--4-2-4---5-------|
B|--2----2h3--5--5--3-------5-------|
G|--2------------4--4-------2-------|
D|--2------------2------------------|
A|----------------------------------|
E|--5----5------------------5-------|

Receba nossos artigos

*

6 aulas de exercícios de violão

13 aulas de violão iniciante

7 aulas de Violão com Beatles

11 aulas de acordes de violão

7 aulas para evoluir no violão

Sobre nós:

A Primeiros Acordes tem como objetivo ensinar você a aprender a tocar no conforto de sua casa, com aulas, cursos, vídeo-aulas, métodos voltados para o aprendizado online.

Contato

Primeiros Acordes

Email: marcos.dupra@globo.com

Horário: 9:00 ás 18:00 hs

Não temos loja física